ISO-10303-21;
HEADER;
/* Generated by software containing ST-Developer
 * from STEP Tools, Inc. (www.steptools.com) 
 */
/* OPTION: using custom schema-name function */

FILE_DESCRIPTION(
/* description */ (''),
/* implementation_level */ '2;1');

FILE_NAME(
/* name */ 'P-1250-3P-1250A-XP.stp',
/* time_stamp */ '2025-02-10T14:11:47+08:00',
/* author */ (''),
/* organization */ (''),
/* preprocessor_version */ 'ST-DEVELOPER v11',
/* originating_system */ 'SIEMENS UGS NX 6.0',
/* authorisation */ '');

FILE_SCHEMA (('CONFIG_CONTROL_DESIGN'));
ENDSEC;

DATA;
#10=SHAPE_REPRESENTATION_RELATIONSHIP('None',
'relationship between pc73A0fx92-None and pc73A0fx92-None',#94,#11);
#11=ADVANCED_BREP_SHAPE_REPRESENTATION('pc73A0fx92-None',(#95),#385);
#12=CC_DESIGN_APPROVAL(#24,(#82));
#13=CC_DESIGN_APPROVAL(#25,(#84));
#14=CC_DESIGN_APPROVAL(#26,(#31));
#15=APPROVAL_PERSON_ORGANIZATION(#69,#24,#18);
#16=APPROVAL_PERSON_ORGANIZATION(#70,#25,#19);
#17=APPROVAL_PERSON_ORGANIZATION(#71,#26,#20);
#18=APPROVAL_ROLE('approver');
#19=APPROVAL_ROLE('approver');
#20=APPROVAL_ROLE('approver');
#21=APPROVAL_DATE_TIME(#39,#24);
#22=APPROVAL_DATE_TIME(#40,#25);
#23=APPROVAL_DATE_TIME(#41,#26);
#24=APPROVAL(#27,' ');
#25=APPROVAL(#28,' ');
#26=APPROVAL(#29,' ');
#27=APPROVAL_STATUS('not_yet_approved');
#28=APPROVAL_STATUS('not_yet_approved');
#29=APPROVAL_STATUS('not_yet_approved');
#30=CC_DESIGN_SECURITY_CLASSIFICATION(#31,(#84));
#31=SECURITY_CLASSIFICATION(' ',' ',#32);
#32=SECURITY_CLASSIFICATION_LEVEL('confidential');
#33=CC_DESIGN_DATE_AND_TIME_ASSIGNMENT(#37,#35,(#82));
#34=CC_DESIGN_DATE_AND_TIME_ASSIGNMENT(#38,#36,(#31));
#35=DATE_TIME_ROLE('creation_date');
#36=DATE_TIME_ROLE('classification_date');
#37=DATE_AND_TIME(#52,#42);
#38=DATE_AND_TIME(#53,#43);
#39=DATE_AND_TIME(#54,#44);
#40=DATE_AND_TIME(#55,#45);
#41=DATE_AND_TIME(#56,#46);
#42=LOCAL_TIME(0,0,0.,#47);
#43=LOCAL_TIME(0,0,0.,#48);
#44=LOCAL_TIME(0,0,0.,#49);
#45=LOCAL_TIME(0,0,0.,#50);
#46=LOCAL_TIME(0,0,0.,#51);
#47=COORDINATED_UNIVERSAL_TIME_OFFSET(0,0,.BEHIND.);
#48=COORDINATED_UNIVERSAL_TIME_OFFSET(0,0,.BEHIND.);
#49=COORDINATED_UNIVERSAL_TIME_OFFSET(0,0,.BEHIND.);
#50=COORDINATED_UNIVERSAL_TIME_OFFSET(0,0,.BEHIND.);
#51=COORDINATED_UNIVERSAL_TIME_OFFSET(0,0,.BEHIND.);
#52=CALENDAR_DATE(0,1,1);
#53=CALENDAR_DATE(0,1,1);
#54=CALENDAR_DATE(0,1,1);
#55=CALENDAR_DATE(0,1,1);
#56=CALENDAR_DATE(0,1,1);
#57=CC_DESIGN_PERSON_AND_ORGANIZATION_ASSIGNMENT(#65,#61,(#82,#84));
#58=CC_DESIGN_PERSON_AND_ORGANIZATION_ASSIGNMENT(#66,#62,(#86));
#59=CC_DESIGN_PERSON_AND_ORGANIZATION_ASSIGNMENT(#67,#63,(#84));
#60=CC_DESIGN_PERSON_AND_ORGANIZATION_ASSIGNMENT(#68,#64,(#31));
#61=PERSON_AND_ORGANIZATION_ROLE('creator');
#62=PERSON_AND_ORGANIZATION_ROLE('design_owner');
#63=PERSON_AND_ORGANIZATION_ROLE('design_supplier');
#64=PERSON_AND_ORGANIZATION_ROLE('classification_officer');
#65=PERSON_AND_ORGANIZATION(#79,#72);
#66=PERSON_AND_ORGANIZATION(#79,#73);
#67=PERSON_AND_ORGANIZATION(#79,#74);
#68=PERSON_AND_ORGANIZATION(#79,#75);
#69=PERSON_AND_ORGANIZATION(#79,#76);
#70=PERSON_AND_ORGANIZATION(#79,#77);
#71=PERSON_AND_ORGANIZATION(#79,#78);
#72=ORGANIZATION(' ',' ',' ');
#73=ORGANIZATION(' ',' ',' ');
#74=ORGANIZATION(' ',' ',' ');
#75=ORGANIZATION(' ',' ',' ');
#76=ORGANIZATION(' ',' ',' ');
#77=ORGANIZATION(' ',' ',' ');
#78=ORGANIZATION(' ',' ',' ');
#79=PERSON(' ',' ',' ',(' '),$,$);
#80=SHAPE_DEFINITION_REPRESENTATION(#81,#94);
#81=PRODUCT_DEFINITION_SHAPE('','',#82);
#82=PRODUCT_DEFINITION(' ','',#84,#83);
#83=DESIGN_CONTEXT('',#93,'design');
#84=PRODUCT_DEFINITION_FORMATION_WITH_SPECIFIED_SOURCE(' ',' ',#86,.NOT_KNOWN.);
#85=PRODUCT_RELATED_PRODUCT_CATEGORY('detail','',(#86));
#86=PRODUCT('pc73A0fx92','pc73A0fx92',' ',(#91));
#87=PRODUCT_CATEGORY_RELATIONSHIP(' ',' ',#89,#90);
#88=PRODUCT_CATEGORY_RELATIONSHIP('','',#90,#85);
#89=PRODUCT_CATEGORY('part',' ');
#90=PRODUCT_CATEGORY(' ','');
#91=MECHANICAL_CONTEXT(' ',#93,'mechanical');
#92=APPLICATION_PROTOCOL_DEFINITION('international standard',
'config_control_design',1994,#93);
#93=APPLICATION_CONTEXT(
'configuration controlled 3D designs of mechanical parts and assemblies');
#94=SHAPE_REPRESENTATION('pc73A0fx92-None',(#269),#385);
#95=MANIFOLD_SOLID_BREP('',#96);
#96=CLOSED_SHELL('',(#105,#106,#107,#108,#109,#110,#111,#112,#113,#114));
#97=CYLINDRICAL_SURFACE('',#284,5.25);
#98=CYLINDRICAL_SURFACE('',#285,5.25);
#99=CYLINDRICAL_SURFACE('',#286,6.5);
#100=CYLINDRICAL_SURFACE('',#287,6.5);
#101=FACE_OUTER_BOUND('',#168,.T.);
#102=FACE_OUTER_BOUND('',#169,.T.);
#103=FACE_OUTER_BOUND('',#170,.T.);
#104=FACE_OUTER_BOUND('',#176,.T.);
#105=ADVANCED_FACE('',(#145,#146,#147,#148,#149),#115,.T.);
#106=ADVANCED_FACE('',(#101),#116,.T.);
#107=ADVANCED_FACE('',(#102),#117,.T.);
#108=ADVANCED_FACE('',(#103),#118,.T.);
#109=ADVANCED_FACE('',(#150,#151,#152,#153,#154),#119,.T.);
#110=ADVANCED_FACE('',(#104),#120,.T.);
#111=ADVANCED_FACE('',(#155,#156),#97,.F.);
#112=ADVANCED_FACE('',(#157,#158),#98,.F.);
#113=ADVANCED_FACE('',(#159,#160),#99,.F.);
#114=ADVANCED_FACE('',(#161,#162),#100,.F.);
#115=PLANE('',#274);
#116=PLANE('',#275);
#117=PLANE('',#276);
#118=PLANE('',#277);
#119=PLANE('',#282);
#120=PLANE('',#283);
#121=LINE('',#347,#133);
#122=LINE('',#350,#134);
#123=LINE('',#352,#135);
#124=LINE('',#354,#136);
#125=LINE('',#356,#137);
#126=LINE('',#358,#138);
#127=LINE('',#360,#139);
#128=LINE('',#362,#140);
#129=LINE('',#364,#141);
#130=LINE('',#366,#142);
#131=LINE('',#368,#143);
#132=LINE('',#378,#144);
#133=VECTOR('',#298,1.);
#134=VECTOR('',#299,1.);
#135=VECTOR('',#300,1.);
#136=VECTOR('',#301,1.);
#137=VECTOR('',#304,1.);
#138=VECTOR('',#305,1.);
#139=VECTOR('',#306,1.);
#140=VECTOR('',#309,1.);
#141=VECTOR('',#310,1.);
#142=VECTOR('',#313,1.);
#143=VECTOR('',#314,1.);
#144=VECTOR('',#325,1.);
#145=FACE_BOUND('',#163,.T.);
#146=FACE_BOUND('',#164,.T.);
#147=FACE_BOUND('',#165,.T.);
#148=FACE_BOUND('',#166,.T.);
#149=FACE_BOUND('',#167,.T.);
#150=FACE_BOUND('',#171,.T.);
#151=FACE_BOUND('',#172,.T.);
#152=FACE_BOUND('',#173,.T.);
#153=FACE_BOUND('',#174,.T.);
#154=FACE_BOUND('',#175,.T.);
#155=FACE_BOUND('',#177,.T.);
#156=FACE_BOUND('',#178,.T.);
#157=FACE_BOUND('',#179,.T.);
#158=FACE_BOUND('',#180,.T.);
#159=FACE_BOUND('',#181,.T.);
#160=FACE_BOUND('',#182,.T.);
#161=FACE_BOUND('',#183,.T.);
#162=FACE_BOUND('',#184,.T.);
#163=EDGE_LOOP('',(#185));
#164=EDGE_LOOP('',(#186));
#165=EDGE_LOOP('',(#187));
#166=EDGE_LOOP('',(#188));
#167=EDGE_LOOP('',(#189,#190,#191,#192));
#168=EDGE_LOOP('',(#193,#194,#195,#196));
#169=EDGE_LOOP('',(#197,#198,#199,#200));
#170=EDGE_LOOP('',(#201,#202,#203,#204));
#171=EDGE_LOOP('',(#205));
#172=EDGE_LOOP('',(#206));
#173=EDGE_LOOP('',(#207));
#174=EDGE_LOOP('',(#208));
#175=EDGE_LOOP('',(#209,#210,#211,#212));
#176=EDGE_LOOP('',(#213,#214,#215,#216));
#177=EDGE_LOOP('',(#217));
#178=EDGE_LOOP('',(#218));
#179=EDGE_LOOP('',(#219));
#180=EDGE_LOOP('',(#220));
#181=EDGE_LOOP('',(#221));
#182=EDGE_LOOP('',(#222));
#183=EDGE_LOOP('',(#223));
#184=EDGE_LOOP('',(#224));
#185=ORIENTED_EDGE('',*,*,#241,.F.);
#186=ORIENTED_EDGE('',*,*,#242,.T.);
#187=ORIENTED_EDGE('',*,*,#243,.T.);
#188=ORIENTED_EDGE('',*,*,#244,.T.);
#189=ORIENTED_EDGE('',*,*,#245,.F.);
#190=ORIENTED_EDGE('',*,*,#246,.F.);
#191=ORIENTED_EDGE('',*,*,#247,.F.);
#192=ORIENTED_EDGE('',*,*,#248,.F.);
#193=ORIENTED_EDGE('',*,*,#249,.T.);
#194=ORIENTED_EDGE('',*,*,#245,.T.);
#195=ORIENTED_EDGE('',*,*,#250,.F.);
#196=ORIENTED_EDGE('',*,*,#251,.T.);
#197=ORIENTED_EDGE('',*,*,#250,.T.);
#198=ORIENTED_EDGE('',*,*,#248,.T.);
#199=ORIENTED_EDGE('',*,*,#252,.F.);
#200=ORIENTED_EDGE('',*,*,#253,.T.);
#201=ORIENTED_EDGE('',*,*,#252,.T.);
#202=ORIENTED_EDGE('',*,*,#247,.T.);
#203=ORIENTED_EDGE('',*,*,#254,.F.);
#204=ORIENTED_EDGE('',*,*,#255,.T.);
#205=ORIENTED_EDGE('',*,*,#256,.T.);
#206=ORIENTED_EDGE('',*,*,#257,.F.);
#207=ORIENTED_EDGE('',*,*,#258,.F.);
#208=ORIENTED_EDGE('',*,*,#259,.F.);
#209=ORIENTED_EDGE('',*,*,#260,.F.);
#210=ORIENTED_EDGE('',*,*,#251,.F.);
#211=ORIENTED_EDGE('',*,*,#253,.F.);
#212=ORIENTED_EDGE('',*,*,#255,.F.);
#213=ORIENTED_EDGE('',*,*,#260,.T.);
#214=ORIENTED_EDGE('',*,*,#254,.T.);
#215=ORIENTED_EDGE('',*,*,#246,.T.);
#216=ORIENTED_EDGE('',*,*,#249,.F.);
#217=ORIENTED_EDGE('',*,*,#259,.T.);
#218=ORIENTED_EDGE('',*,*,#244,.F.);
#219=ORIENTED_EDGE('',*,*,#258,.T.);
#220=ORIENTED_EDGE('',*,*,#243,.F.);
#221=ORIENTED_EDGE('',*,*,#257,.T.);
#222=ORIENTED_EDGE('',*,*,#242,.F.);
#223=ORIENTED_EDGE('',*,*,#241,.T.);
#224=ORIENTED_EDGE('',*,*,#256,.F.);
#225=VERTEX_POINT('',#340);
#226=VERTEX_POINT('',#342);
#227=VERTEX_POINT('',#344);
#228=VERTEX_POINT('',#346);
#229=VERTEX_POINT('',#348);
#230=VERTEX_POINT('',#349);
#231=VERTEX_POINT('',#351);
#232=VERTEX_POINT('',#353);
#233=VERTEX_POINT('',#357);
#234=VERTEX_POINT('',#359);
#235=VERTEX_POINT('',#363);
#236=VERTEX_POINT('',#367);
#237=VERTEX_POINT('',#371);
#238=VERTEX_POINT('',#373);
#239=VERTEX_POINT('',#375);
#240=VERTEX_POINT('',#377);
#241=EDGE_CURVE('',#225,#225,#261,.T.);
#242=EDGE_CURVE('',#226,#226,#262,.T.);
#243=EDGE_CURVE('',#227,#227,#263,.T.);
#244=EDGE_CURVE('',#228,#228,#264,.T.);
#245=EDGE_CURVE('',#229,#230,#121,.T.);
#246=EDGE_CURVE('',#231,#229,#122,.T.);
#247=EDGE_CURVE('',#232,#231,#123,.T.);
#248=EDGE_CURVE('',#230,#232,#124,.T.);
#249=EDGE_CURVE('',#233,#229,#125,.T.);
#250=EDGE_CURVE('',#234,#230,#126,.T.);
#251=EDGE_CURVE('',#234,#233,#127,.T.);
#252=EDGE_CURVE('',#235,#232,#128,.T.);
#253=EDGE_CURVE('',#235,#234,#129,.T.);
#254=EDGE_CURVE('',#236,#231,#130,.T.);
#255=EDGE_CURVE('',#236,#235,#131,.T.);
#256=EDGE_CURVE('',#237,#237,#265,.T.);
#257=EDGE_CURVE('',#238,#238,#266,.T.);
#258=EDGE_CURVE('',#239,#239,#267,.T.);
#259=EDGE_CURVE('',#240,#240,#268,.T.);
#260=EDGE_CURVE('',#233,#236,#132,.T.);
#261=CIRCLE('',#270,6.5);
#262=CIRCLE('',#271,6.5);
#263=CIRCLE('',#272,5.25);
#264=CIRCLE('',#273,5.25);
#265=CIRCLE('',#278,6.5);
#266=CIRCLE('',#279,6.5);
#267=CIRCLE('',#280,5.25);
#268=CIRCLE('',#281,5.25);
#269=AXIS2_PLACEMENT_3D('',#338,#288,#289);
#270=AXIS2_PLACEMENT_3D('',#339,#290,#291);
#271=AXIS2_PLACEMENT_3D('',#341,#292,#293);
#272=AXIS2_PLACEMENT_3D('',#343,#294,#295);
#273=AXIS2_PLACEMENT_3D('',#345,#296,#297);
#274=AXIS2_PLACEMENT_3D('',#355,#302,#303);
#275=AXIS2_PLACEMENT_3D('',#361,#307,#308);
#276=AXIS2_PLACEMENT_3D('',#365,#311,#312);
#277=AXIS2_PLACEMENT_3D('',#369,#315,#316);
#278=AXIS2_PLACEMENT_3D('',#370,#317,#318);
#279=AXIS2_PLACEMENT_3D('',#372,#319,#320);
#280=AXIS2_PLACEMENT_3D('',#374,#321,#322);
#281=AXIS2_PLACEMENT_3D('',#376,#323,#324);
#282=AXIS2_PLACEMENT_3D('',#379,#326,#327);
#283=AXIS2_PLACEMENT_3D('',#380,#328,#329);
#284=AXIS2_PLACEMENT_3D('',#381,#330,#331);
#285=AXIS2_PLACEMENT_3D('',#382,#332,#333);
#286=AXIS2_PLACEMENT_3D('',#383,#334,#335);
#287=AXIS2_PLACEMENT_3D('',#384,#336,#337);
#288=DIRECTION('',(0.,0.,1.));
#289=DIRECTION('',(1.,0.,0.));
#290=DIRECTION('',(4.82764803496762E-033,6.12303176911189E-017,-1.));
#291=DIRECTION('',(0.,-1.,-6.12303176911193E-017));
#292=DIRECTION('',(-4.82764803496762E-033,-6.12303176911189E-017,1.));
#293=DIRECTION('',(0.,-1.,-6.12303176911193E-017));
#294=DIRECTION('',(-4.82764803496762E-033,-6.12303176911189E-017,1.));
#295=DIRECTION('',(0.,-1.,-6.12303176911193E-017));
#296=DIRECTION('',(-4.82764803496762E-033,-6.12303176911189E-017,1.));
#297=DIRECTION('',(0.,-1.,-6.12303176911193E-017));
#298=DIRECTION('',(-1.,-6.12303176911189E-017,-8.57679983952297E-033));
#299=DIRECTION('',(-6.12303176911189E-017,1.,6.12303176911189E-017));
#300=DIRECTION('',(1.,6.12303176911189E-017,8.57679983952297E-033));
#301=DIRECTION('',(6.12303176911189E-017,-1.,-6.12303176911189E-017));
#302=DIRECTION('',(4.82764803496762E-033,6.12303176911189E-017,-1.));
#303=DIRECTION('',(1.,5.55111512312578E-017,6.16297582203915E-033));
#304=DIRECTION('',(4.82764803496762E-033,6.12303176911189E-017,-1.));
#305=DIRECTION('',(4.82764803496762E-033,6.12303176911189E-017,-1.));
#306=DIRECTION('',(1.,6.12303176911189E-017,8.57679983952297E-033));
#307=DIRECTION('',(-6.12303176911189E-017,1.,6.12303176911189E-017));
#308=DIRECTION('',(0.,-5.55111512312578E-017,1.));
#309=DIRECTION('',(4.82764803496762E-033,6.12303176911189E-017,-1.));
#310=DIRECTION('',(-6.12303176911189E-017,1.,6.12303176911189E-017));
#311=DIRECTION('',(-1.,-6.12303176911189E-017,-8.57679983952297E-033));
#312=DIRECTION('',(0.,5.55111512312578E-017,-1.));
#313=DIRECTION('',(4.82764803496762E-033,6.12303176911189E-017,-1.));
#314=DIRECTION('',(-1.,-6.12303176911189E-017,-8.57679983952297E-033));
#315=DIRECTION('',(6.12303176911189E-017,-1.,-6.12303176911189E-017));
#316=DIRECTION('',(0.,5.55111512312578E-017,-1.));
#317=DIRECTION('',(4.82764803496762E-033,6.12303176911189E-017,-1.));
#318=DIRECTION('',(0.,1.,0.));
#319=DIRECTION('',(-4.82764803496762E-033,-6.12303176911189E-017,1.));
#320=DIRECTION('',(0.,1.,0.));
#321=DIRECTION('',(-4.82764803496762E-033,-6.12303176911189E-017,1.));
#322=DIRECTION('',(0.,1.,0.));
#323=DIRECTION('',(-4.82764803496762E-033,-6.12303176911189E-017,1.));
#324=DIRECTION('',(0.,1.,0.));
#325=DIRECTION('',(6.12303176911189E-017,-1.,-6.12303176911189E-017));
#326=DIRECTION('',(-4.82764803496762E-033,-6.12303176911189E-017,1.));
#327=DIRECTION('',(-1.,-5.55111512312578E-017,0.));
#328=DIRECTION('',(1.,6.12303176911189E-017,8.57679983952297E-033));
#329=DIRECTION('',(0.,-5.55111512312578E-017,1.));
#330=DIRECTION('',(-4.82764803496762E-033,-6.12303176911189E-017,1.));
#331=DIRECTION('',(0.,1.,6.12303176911193E-017));
#332=DIRECTION('',(-4.82764803496762E-033,-6.12303176911189E-017,1.));
#333=DIRECTION('',(0.,1.,6.12303176911193E-017));
#334=DIRECTION('',(-4.82764803496762E-033,-6.12303176911189E-017,1.));
#335=DIRECTION('',(0.,1.,6.12303176911193E-017));
#336=DIRECTION('',(4.82764803496762E-033,6.12303176911189E-017,-1.));
#337=DIRECTION('',(0.,-1.,0.));
#338=CARTESIAN_POINT('',(0.,0.,0.));
#339=CARTESIAN_POINT('',(344.317421757611,171.74192691512,-5.52968451193389E-014));
#340=CARTESIAN_POINT('',(344.317421757611,165.241926915119,-5.56948421843312E-014));
#341=CARTESIAN_POINT('',(344.317421757611,139.74192691512,-5.52968451193389E-014));
#342=CARTESIAN_POINT('',(344.317421757611,133.24192691512,-5.56948421843312E-014));
#343=CARTESIAN_POINT('',(355.217421757611,210.241926915119,-5.55111512312578E-014));
#344=CARTESIAN_POINT('',(355.217421757611,204.991926915119,-5.58326103991362E-014));
#345=CARTESIAN_POINT('',(333.417421757611,210.241926915119,-5.55111512312578E-014));
#346=CARTESIAN_POINT('',(333.417421757611,204.991926915119,-5.58326103991362E-014));
#347=CARTESIAN_POINT('',(344.317421757611,222.241926915119,-5.55111512312578E-014));
#348=CARTESIAN_POINT('',(364.317421757611,222.241926915119,-5.55111512312578E-014));
#349=CARTESIAN_POINT('',(324.317421757611,222.241926915119,-5.55111512312578E-014));
#350=CARTESIAN_POINT('',(364.317421757611,181.241926915119,-5.55111512312578E-014));
#351=CARTESIAN_POINT('',(364.317421757611,124.24192691512,-5.90012793396516E-014));
#352=CARTESIAN_POINT('',(344.317421757611,124.24192691512,-5.88581375478292E-014));
#353=CARTESIAN_POINT('',(324.317421757611,124.24192691512,-5.90012793396516E-014));
#354=CARTESIAN_POINT('',(324.317421757611,181.241926915119,-5.55111512312578E-014));
#355=CARTESIAN_POINT('',(344.317421757611,181.241926915119,-5.55111512312578E-014));
#356=CARTESIAN_POINT('',(364.317421757611,222.241926915119,7.99999999999995));
#357=CARTESIAN_POINT('',(364.317421757611,222.241926915119,9.99999999999995));
#358=CARTESIAN_POINT('',(324.317421757611,222.241926915119,7.99999999999995));
#359=CARTESIAN_POINT('',(324.317421757611,222.241926915119,9.99999999999995));
#360=CARTESIAN_POINT('',(344.317421757611,222.241926915119,9.99999999999995));
#361=CARTESIAN_POINT('',(344.317421757611,222.241926915119,7.99999999999995));
#362=CARTESIAN_POINT('',(324.317421757611,124.24192691512,7.99999999999995));
#363=CARTESIAN_POINT('',(324.317421757611,124.24192691512,9.99999999999995));
#364=CARTESIAN_POINT('',(324.317421757611,181.241926915119,9.99999999999995));
#365=CARTESIAN_POINT('',(324.317421757611,181.241926915119,7.99999999999995));
#366=CARTESIAN_POINT('',(364.317421757611,124.24192691512,7.99999999999995));
#367=CARTESIAN_POINT('',(364.317421757611,124.24192691512,9.99999999999995));
#368=CARTESIAN_POINT('',(344.317421757611,124.24192691512,9.99999999999995));
#369=CARTESIAN_POINT('',(344.317421757611,124.24192691512,7.99999999999995));
#370=CARTESIAN_POINT('',(344.317421757611,171.74192691512,9.99999999999995));
#371=CARTESIAN_POINT('',(344.317421757611,178.24192691512,9.99999999999995));
#372=CARTESIAN_POINT('',(344.317421757611,139.74192691512,9.99999999999995));
#373=CARTESIAN_POINT('',(344.317421757611,146.24192691512,9.99999999999995));
#374=CARTESIAN_POINT('',(355.217421757611,210.241926915119,9.99999999999995));
#375=CARTESIAN_POINT('',(355.217421757611,215.491926915119,9.99999999999995));
#376=CARTESIAN_POINT('',(333.417421757611,210.241926915119,9.99999999999995));
#377=CARTESIAN_POINT('',(333.417421757611,215.491926915119,9.99999999999995));
#378=CARTESIAN_POINT('',(364.317421757611,181.241926915119,9.99999999999995));
#379=CARTESIAN_POINT('',(344.317421757611,181.241926915119,9.99999999999995));
#380=CARTESIAN_POINT('',(364.317421757611,181.241926915119,7.99999999999995));
#381=CARTESIAN_POINT('',(333.417421757611,210.241926915119,-5.55111512312578E-014));
#382=CARTESIAN_POINT('',(355.217421757611,210.241926915119,-5.55111512312578E-014));
#383=CARTESIAN_POINT('',(344.317421757611,139.74192691512,-5.52968451193389E-014));
#384=CARTESIAN_POINT('',(344.317421757611,171.74192691512,16.));
#385=(
GEOMETRIC_REPRESENTATION_CONTEXT(3)
GLOBAL_UNCERTAINTY_ASSIGNED_CONTEXT((#386))
GLOBAL_UNIT_ASSIGNED_CONTEXT((#392,#388,#387))
REPRESENTATION_CONTEXT('P-1250-3P-1250A-XP','TOP_LEVEL_ASSEMBLY_PART')
);
#386=UNCERTAINTY_MEASURE_WITH_UNIT(LENGTH_MEASURE(2.E-005),#392,
'DISTANCE_ACCURACY_VALUE','Maximum Tolerance applied to model');
#387=(
NAMED_UNIT(*)
SI_UNIT($,.STERADIAN.)
SOLID_ANGLE_UNIT()
);
#388=(
CONVERSION_BASED_UNIT('DEGREE',#390)
NAMED_UNIT(#389)
PLANE_ANGLE_UNIT()
);
#389=DIMENSIONAL_EXPONENTS(0.,0.,0.,0.,0.,0.,0.);
#390=PLANE_ANGLE_MEASURE_WITH_UNIT(PLANE_ANGLE_MEASURE(0.0174532925),#391);
#391=(
NAMED_UNIT(*)
PLANE_ANGLE_UNIT()
SI_UNIT($,.RADIAN.)
);
#392=(
LENGTH_UNIT()
NAMED_UNIT(*)
SI_UNIT(.MILLI.,.METRE.)
);
ENDSEC;
END-ISO-10303-21;
